marqueur
photo

ALEX
DEBRINCAT

CHICAGO BLACKHAWKS
AILIER GAUCHE  
5'7"     165 LBS
18 DÉCEMBRE 1997  
FARMINGTON HILLS, MICHIGAN, UNITED STATES
REPÊCHAGES
CHICAGO BLACKHAWKS
CHAMPIONNATS
STATISTIQUES
ALEX DEBRINCAT
SAISONSPJBPPTS%PU
2014-15OHLlogo6851531041,5373
 OHL (S)logo2097160,8026
2015-16OHLlogo6051501011,6828
 OHL (S)logo18138211,1719
 U20logo71-10,1425
2016-17OHLlogo6365621272,0249
 OHL (S)logo221325381,7310
2017-18NHLlogo822824520,636
2018-19NHLlogo824135760,9315
2019-20NHLlogo701827450,6415
 NHL (S)logo92460,679
TOTAL NHL23487861730,7436
TOTAL NHL (S)92p60,679
TOTAL OHL1911671653321,74150
TOTAL OHL (S)6035p751,2555
TOTAL U2071-10,1425
  STATISTIQUES
ALEX DEBRINCAT
SAISONSSAISONSÉRIES
PJBPPTSMOYPUN+/-PJBPPTSMOYPUN+/-
2014-15logoERIEOHL6851531041,5373+592097160,8026-
2015-16logoERIEOHL6051501011,6828-18138211,1719-
 logoUNITED STATESU2071-10,1425+1-------
2016-17logoERIEOHL6365621272,0249+60221325381,7310-
2017-18logoCHICAGONHL822824520,636+6-------
2018-19logoCHICAGONHL824135760,9315--------
2019-20logoCHICAGONHL701827450,6415-1092460,679+4
NHLNATIONAL HOCKEY LEAGUE23487861730,7436-492460,679+4
OHLONTARIO HOCKEY LEAGUE1911671653321,74150+119603540751,2555-
U20UNDER 20 WORLD JUNIOR CHAMPIONSHIP71-10,1425+1-------
  TRANSACTIONS
ALEX DEBRINCAT
24 JUIN 2016
logoMONTREAL
CANADIENS
ANDREW SHAW
logoCHICAGO
BLACKHAWKS
2016 RONDE 2 #39      
ALEX DEBRINCAT

2016 RONDE 2 #45      
CHAD KRYS

  SALAIRES
ALEX DEBRINCAT
CONTRATSSAISONSSALAIRECAP HIT
 3 ANS 2 775 000 $2017-18742 500 $778 333 $
  2018-19792 500 $778 333 $
  2019-20800 000 $778 333 $
 1 AN 19 200 000 $2020-215 100 000 $6 400 000 $
  2021-225 100 000 $6 400 000 $
  2022-239 000 000 $6 400 000 $
TOTAL21 535 000 $21 534 999 $
2019-2020
  MATCH PAR MATCH
ALEX DEBRINCAT
DATESÉQUIPESBPPTSBGBAPABDPD+/-PUNLFWFLSHFTOI
4 OCT
1-1-1---+1-5--2117:40
10 OCT
-11-----+3-1--1818:30
12 OCT
---------1-3--1715:34
14 OCT
----------3--1816:21
18 OCT
112-1---+1-2--2017:13
20 OCT
---------3-3-12219:30
22 OCT
----------5-11917:18
24 OCT
---------1-3--1918:11
26 OCT
---------1-21-2120:37
27 OCT
123-----+3-3--1713:26
29 OCT
---------2-2112116:18
2 NOV
----------31-2017:31
3 NOV
1-1-1----1-3--2018:33
5 NOV
-11-------1--1721:31
7 NOV
1-1-----+1-3-12116:05
9 NOV
----------2--2117.00
10 NOV
-33--1--+2-51-2017:16
13 NOV
-22-----+321--2116:28
16 NOV
-11-----+2-2--2017:39
17 NOV
---------2---2016:34
19 NOV
-11-------2--2020:55
21 NOV
--------+1-3--2017:57
23 NOV
-11-----+1-3--2419:32
26 NOV
-11--1----7-21817:49
29 NOV
---------1-3--1818:46
30 NOV
---------2552-1714:58
2 DEC
---------1-2-22321:41
5 DEC
1-1-------3--2218:05
6 DEC
1-1-1-----6--2621:13
8 DEC
1-1-1-----2--2220:39
10 DEC
---------1-2-12017:43
12 DEC
-11--1---422--2218:30
14 DEC
-11-------3--2119:26
15 DEC
----------2--1715:59
18 DEC
-11------2-1--1818:35
19 DEC
---------1-1-12016:55
21 DEC
--------+2-3--2014:58
23 DEC
---------3-3--2018:38
27 DEC
1-11----+1-3--1916:12
29 DEC
-11-----+1-4--2324.00
31 DEC
112-1---+1-5--2217:25
2 JAN
---------2-2--2219:01
5 JAN
-11-----+1-2--1717:01
7 JAN
---------1-2--1919:05
9 JAN
1-1-1----2-3--2318:14
11 JAN
-11-----+1-4--1716:20
14 JAN
---------1-4--1816:33
15 JAN
1-1-1-----3--1915:50
18 JAN
----------2--1512:48
19 JAN
-11-----+1----1513:47
21 JAN
-11------24--1918:07
1 FEV
---------1-8--1815:51
4 FEV
--------+1-2--2116:43
5 FEV
1-1-1-----3--1914:43
9 FEV
---------3-1--1514:10
11 FEV
---------2-4--2317:48
12 FEV
---------1-3--2115:45
15 FEV
1-11----+1-1--1814.00
16 FEV
---------2-2--1714:51
19 FEV
---------2-2--1816:37
21 FEV
2-211---+1-81-1916:50
23 FEV
----------3-11820:21
25 FEV
---------1-2--1917:58
27 FEV
-11--1----2--1817:38
29 FEV
----------3-12018:10
3 MAR
--------+1-1-11917:25
5 MAR
2-21----+2-6--1614:07
6 MAR
---------1-6--2019:24
8 MAR
----------4--1818:54
11 MAR
-33--2--+123--1916:06
Début des séries
1 AOU
----------5--1913:18
3 AOU
-22-----+3----2013:57
5 AOU
-11--1---43--2118:08
7 AOU
---------51--2217.00
11 AOU
---------1---12117:33
13 AOU
-11-----+1-2--2017:33
15 AOU
----------8--2117:32
16 AOU
1-1-----+1-4--2117:44
18 AOU
1-1-------4--2016:08
  MOIS PAR MOIS
ALEX DEBRINCAT
MOISPJBPPTSMOYBGBAPABDPD+/-PUNLFWFLFO%
OCTOBRE 2019113470,64-2-----322340%
NOVEMBRE 201915210120,80-12--+69434357%
DÉCEMBRE 20191555100,67131---7242-4-%
JANVIER 2020102460,60-2----3226---%
FÉVRIER 2020144150,36221---9-441233%
MARS 202052351,001-2--+3220-1-%
AVRIL 2020----------------%
MAI 2020----------------%
JUIN 2020----------------%
JUILLET 2020----------------%
AOUT 20209246---1--+4930722821252%
photo
PLUS VISITÉS DEPUIS 24 HEURES
  
BRAYDEN POINT
  
BRENDAN GALLAGHER
  
ANTHONY DUCLAIR
  
MITCH MARNER
  
ALEXIS LAFRENIÈRE
  
CONNOR MCDAVID
  
ALEX DEBRINCAT
  
MARIO LEMIEUX
  
MAX DOMI
  
JOHNNY GAUDREAU
QUIZ SUR MARQUEUR
500$ À GAGNER
image
Quel politicien est associé à la ''Grande Noirceur'', période de grands bouleversements qui marqua le Québec durant 15 ans?
DANIEL JOHNSON
JEAN CHAREST
MAURICE DUPLESSIS
RENÉ LÉVESQUE