marqueur
photo

VINNIE
HINOSTROZA

FLORIDA PANTHERS
AILIER DROIT  
5'9"     175 LBS
3 AVRIL 1994  
CHICAGO, ILLINOIS, UNITED STATES
REPÊCHAGES
CHICAGO BLACKHAWKS
FINNISH JOKERIT
CHAMPIONNATS
STATISTIQUES
VINNIE HINOSTROZA
SAISONSPJBPPTS%PU
2013-14U20logo53251,00-
 NCAA 34824320,944
2014-15AHLlogo5-220,40-
 NCAA 421133441,0548
2015-16NHLlogo7----6
 AHLlogo661833510,7724
 AHL (S)logo3----2
 WMlogo101230,3010
2016-17NHLlogo4968140,2917
 NHL (S)logo1-----
 AHLlogo153470,474
2017-18NHLlogo50718250,5010
 AHLlogo23913220,968
2018-19NHLlogo721623390,5414
2019-20NHLlogo68517220,3214
 NHL (S)logo7-220,292
TOTAL NHL24634661000,4161
TOTAL NHL (S)8-p20,252
TOTAL AHL1093052820,7536
TOTAL AHL (S)3-p--2
TOTAL WM101230,3010
TOTAL NCAA761957761,0052
TOTAL U2053251,00-
  STATISTIQUES
VINNIE HINOSTROZA
SAISONSSAISONSÉRIES
PJBPPTSMOYPUN+/-PJBPPTSMOYPUN+/-
2013-14logoUNITED STATESU2053251,00-+2-------
  UNIVERSITE NOTRE-DAMENCAA34824320,944+6-------
2014-15logoROCKFORDAHL5-220,40--2-------
  UNIVERSITE NOTRE-DAMENCAA421133441,0548+4-------
2015-16logoCHICAGONHL7----6-1-------
 logoROCKFORDAHL661833510,7724+73----2-
 logoUNITED STATESWM101230,3010-1-------
2016-17logoCHICAGONHL4968140,2917-11------2
 logoROCKFORDAHL153470,474-8-------
2017-18logoCHICAGONHL50718250,5010+5-------
 logoROCKFORDAHL23913220,968+7-------
2018-19logoARIZONANHL721623390,5414-4-------
2019-20logoARIZONANHL68517220,3214+17-220,292+1
NHLNATIONAL HOCKEY LEAGUE24634661000,4161-8-220,252-1
AHLAMERICAN HOCKEY LEAGUE1093052820,7536+43----2-
WMMENS ICE HOCKEY WORLD CHAMPIONSHIP101230,3010-1-------
NCAANATIONAL COLLEGIATE ATHLETIC ASSOCIATION761957761,0052+10-------
U20UNDER 20 WORLD JUNIOR CHAMPIONSHIP53251,00-+2-------
  TRANSACTIONS
VINNIE HINOSTROZA
12 JUILLET 2018
logoCHICAGO
BLACKHAWKS
ANDREW CAMPBELL
JORDAN MALETTA
MACKENZIE ENTWISTLE
MARCUS KRÜGER
2019 RONDE 5
logoARIZONA
COYOTES
JORDAN OESTERLE
MARIAN HOSSA
VINNIE HINOSTROZA
2019 RONDE 3
  TROPHÉES
VINNIE HINOSTROZA
--- AUCUN RÉSULTAT ---
  SALAIRES
VINNIE HINOSTROZA
CONTRATSSAISONSSALAIRECAP HIT
 3 ANS 2 152 500 $2015-16667 500 $717 500 $
  2016-17667 500 $717 500 $
  2017-18817 500 $717 500 $
 2 ANS 3 000 000 $2018-191 500 000 $1 500 000 $
  2019-201 500 000 $1 500 000 $
 1 AN 1 000 000 $2020-211 000 000 $1 000 000 $
TOTAL6 152 500 $6 152 500 $
2019-2020
  MATCH PAR MATCH
VINNIE HINOSTROZA
DATESÉQUIPESBPPTSBGBAPABDPD+/-PUNLFWFLSHFTOI
3 OCT
---------1-1-12013:03
5 OCT
----------1111913:54
10 OCT
-----------312013:00
12 OCT
-11-----+1-3111612:25
15 OCT
----------31-1711:28
17 OCT
---------1--112111:48
19 OCT
-11-----+1-2111812:55
22 OCT
----------1--1714:08
24 OCT
-----------221611:20
25 OCT
---------12---1510:47
28 OCT
---------23-11914:57
30 OCT
---------1-1-12115:36
2 NOV
-------------2212:28
4 NOV
--------+1-1-11914:46
5 NOV
1-1-------3-11711:29
7 NOV
-11-------1--1611:20
9 NOV
1-1-----+2-3--1712:32
11 NOV
-11-------4--2315:15
12 NOV
---------1---12113:33
14 NOV
----------2--2113:09
16 NOV
----------1-21912.00
18 NOV
----------2--1613.00
21 NOV
1-1-----+1-2--1913:30
23 NOV
-11---------12516:41
24 NOV
1-1-----+1-4--2016:44
27 NOV
-11-------2--2115:15
29 NOV
----------2--2012:19
30 NOV
--------+1--1-2014:14
3 DEC
----------1--2214:43
5 DEC
----------1--2213:37
6 DEC
---------24--1814:34
8 DEC
----------4--2014:34
10 DEC
--------+1-4112314:58
12 DEC
-33-----+3-1--1912:43
14 DEC
-11--1---1-1-12112:07
17 DEC
-11-----+1-2--1814:29
19 DEC
---------2-1--1912:36
22 DEC
----------3--1814:55
23 DEC
---------1-4--1512:55
28 DEC
---------2-2-11712:00
31 DEC
----------1-11811:59
2 JAN
-11-----+1-22-1913:37
4 JAN
-11-----+241112112:07
7 JAN
----------1-22314:03
9 JAN
---------2-3-21914:00
10 JAN
---------12411169:40
12 JAN
----------3111812:34
14 JAN
----------1-11210:03
16 JAN
----------21-1611:44
18 JAN
---------2-21-1913:34
29 JAN
112-------3--1913:05
30 JAN
---------1-3-11813:33
1 FEV
----------4-11912:49
4 FEV
--------+1-1--1912:43
6 FEV
-----------311711:14
8 FEV
-11-------3--2314:10
10 FEV
----------31-1813:17
11 FEV
----------2--2013:26
13 FEV
----------21-2216:46
15 FEV
---------22--1712:19
17 FEV
----------4-11813:03
19 FEV
----------1--1510:19
22 FEV
--------+1--112213:14
25 FEV
-11----1+1-3112013:40
29 FEV
---------1-4-11613:04
4 MAR
-11-----+1-4--1711:59
6 MAR
--------+1-2--169:58
9 MAR
---------2-1--1610:40
Début des séries
5 AOU
--------+1-1--1510:17
7 AOU
-11-----+2--1-1711.00
12 AOU
---------1--111811:57
14 AOU
---------2-11159:28
15 AOU
--------+1--11169:31
17 AOU
-11--1----1--1913:02
19 AOU
---------2-22-2113:33
  MOIS PAR MOIS
VINNIE HINOSTROZA
MOISPJBPPTSMOYBGBAPABDPD+/-PUNLFWFLFO%
OCTOBRE 201912-220,17------2415101050%
NOVEMBRE 2019164480,50-----+5-271614%
DÉCEMBRE 201913-550,38--1---12291420%
JANVIER 2020111340,36------36257944%
FÉVRIER 202013-220,15----1+22297654%
MARS 20203-110,33-------7---%
AVRIL 2020----------------%
MAI 2020----------------%
JUIN 2020----------------%
JUILLET 2020----------------%
AOUT 20207-22---1--+1274393453%
photo
PLUS VISITÉS DEPUIS 24 HEURES
  
NAIL YAKUPOV
  
SEAN FARRELL
  
BRAYDEN POINT
  
CONNOR MCDAVID
  
COLE CAUFIELD
  
PHILLIP DANAULT
  
TOMAS TATAR
  
JOHNNY GAUDREAU
  
SHEA WEBER
  
CAMILLE HENRY
QUIZ SUR MARQUEUR
500$ À GAGNER
image
À quel artiste ou groupe associez-vous ces paroles de chanson?
KAIN
LA CHICANE
LES COWBOYS FRIGANTS
LES TROIS ACCORDS