MEMBRE
  MEMBRE
RECHERCHE
PUBLICITÉS
LNH
LIGUE NATIONALE DE HOCKEY
INFOS
STATS
CALENDRIER
HONNEURS

RÉSULTATS LNH

       
POINTEURS
7 DÉCEMBRE 2023
BPPTS+/-PUNLHITSTOI
MATHEW BARZAL
224+3-5-18:15
QUINTON BYFIELD
213+2-2-11.00
ADAM FANTILLI
213+1-3214:51
BO HORVAT
213+423-18:25
MIKAEL GRANLUND
123+2-1-18:47
ANZE KOPITAR
-33+1-3-14.00
KYLE CONNOR
2-2+2-4-20:10
TOMAS HERTL
2-2+1-9-20:49
ROOPE HINTZ
2-2+124-17:28
TRAVIS KONECNY
2-2+1-3116:17
MICHAEL RASMUSSEN
2-2+122114:17
DYLAN STROME
2-2--6118:55
NICO STURM
2-2--3-15:59
EMIL BEMSTROM
112+1-3-13:39
BLAKE COLEMAN
112+1-5-16:01
DREW DOUGHTY
112+222122.00
ROMAN JOSI
112+224-20:07
NATHAN MACKINNON
112-1-5-25:01
RYAN MCDONAGH
112+2-2-18:14
JOSH MORRISSEY
112+422-24:22
ALEXEI PROTAS
112+1-3-15:39
LUCAS RAYMOND
112--2216:45
CAM YORK
112+2-1220:40
FABIAN ZETTERLUND
112+2-3-19:00
T.J. BRODIE
-22+1--122:40
BEN CHIAROT
-22+322419:37
ROBBY FABBRI
-22+1---16:14
KEVIN FIALA
-22+124-15.00
KENT JOHNSON
-22----14:58
JAKE MCCABE
-22+2--125:08
JASON ROBERTSON
-22+1-1218:14
JAN RUTTA
-22+1-2220:04
RASMUS ANDERSSON
1-1+1-2-22:21
ALEX BARRE-BOULET
1-1-123-12:40
JACOB BERNARD-DOCKER
1-1+1-1118:09
TEDDY BLUEGER
1-1+1-1-15:43
MICHAEL BUNTING
1-1-1-4-12:42
CAL CLUTTERBUCK
1-1--1112:55
LAWSON CROUSE
1-1--5320:51
PIERRE ENGVALL
1-1--2-15:02
JOEL FARABEE
1-1+1-1114:17
FILIP FORSBERG
1-1-23116:05
CLAUDE GIROUX
1-1-1-2-19:10
NILS HOGLANDER
1-1+1-1115:45
CALLE JARNKROK
1-1--1-14:29
DAVID KAMPF
1-1--3213:16
TYE KARTYE
1-1--4314:12
JOEL KIVIRANTA
1-1+1-1107:44
KLIM KOSTIN
1-1--2109:11
PHILIPP KURASHEV
1-1--2-17:45
EVGENY KUZNETSOV
1-1--2120:57
DYLAN LARKIN
1-1--4-22:10
ADAM LOWRY
1-1+1-2115:01
BRAD MARCHAND
1-1+144219:48
MASON MARCHMENT
1-1--2115:33
MITCH MARNER
1-1+1-1-20:03
TREVOR MOORE
1-1+2-5-17.00
SIMON NEMEC
1-1+1-1-19:42
STEFAN NOESEN
1-1--1110:08
JOSH NORRIS
1-1--4118:20
WILLIAM NYLANDER
1-1--4-19:34
VICTOR OLOFSSON
1-1+1-3112:26
ONDREJ PALAT
1-1+1-2-16:34
KYLE PALMIERI
1-1+1-3215:36
JUUSO PARSSINEN
1-1-1-2114:07
JOHN-JASON PETERKA
1-1+1-6115:42
TYLER SEGUIN
1-1--3117:05
TAGE THOMPSON
1-1-22419:51
YAKOV TRENIN
1-1+3-2-14:26
CONNOR ZARY
1-1+1-1-17:24
CAM ATKINSON
-11+1-2-14:19
JUSTIN BAILEY
-11-123114:10
ALEXANDER BARABANOV
-11--2-17:54
DRAKE BATHERSON
-11+1-2120:06
CONNOR BEDARD
-11--3-16:01
JAMIE BENN
-11-1-2113:57
BROCK BOESER
-11--1-20:19
SAMUEL BOLDUC
-11+1--116:49
JESPER BRATT
-11+2---15:57
ANDRE BURAKOVSKY
-11--1-09:08
KYLE BURROUGHS
-11--3221:22
BOWEN BYRAM
-11--3-20:45
JAKOB CHYCHRUN
-11-2-3-19:02
ANTHONY CIRELLI
-11--3-16:26
CASEY CIZIKAS
-11-1--212:48
CONNOR CLIFTON
-11+1-1115:29
ANDREW COPP
-11--2-15:01
SEAN COUTURIER
-11+222119:47
DYLAN COZENS
-11+1-2217:22
NICOLAS DESLAURIERS
-11+1--210:52
NOAH DOBSON
-11+1-4125:29
MAX DOMI
-11--1-11:50
JACK DRURY
-11+1--108:39
MATT DUCHENE
-11-1-3117:47
NIKOLAJ EHLERS
-11+221-15:48
WILLIAM EKLUND
-11+125-19:38
HUDSON FASCHING
-11---113:25
CONOR GARLAND
-11+1-2-14:14
JULIEN GAUTHIER
-11-1-1112:01
BRANDON HAGEL
-11+121117:07
MIRO HEISKANEN
-11+223-26:34
NICO HISCHIER
-11+1---18:15
NICK JENSEN
-11+1-2-17:29
TYLER JOHNSON
-11--2-14:49
AXEL JONSSON-FJALLBY
-11----11:11
DAKOTA JOSHUA
-11+15-311:12
NAZEM KADRI
-11+1-5119:11
ADRIAN KEMPE
-11+1-3113.00
KEVIN LABANC
-11-1---14:10
SCOTT LAUGHTON
-11+1-1120:40
HAMPUS LINDHOLM
-11--4126:02
MATIAS MACCELLI
-11--4-22:19
SAM MALINSKI
-11----10:03
ANTHONY MANTHA
-11+1-1114:20
JOHN MARINO
-11--1-21:36
SCOTT MAYFIELD
-11+1---18:07
CONNOR MCMICHAEL
-11--1216:40
TYLER MYERS
-11---116:40
MARTIN NECAS
-11-1-1121:12
BROCK NELSON
-11--1-15:49
NINO NIEDERREITER
-11+2-2-14:02
GUSTAV NYQUIST
-11--1116:00
DMITRY ORLOV
-11-1-3316:37
ALEXANDER OVECHKIN
-11--3117:49
JOE PAVELSKI
-11+1-2118:19
MATTHEW PHILLIPS
-11+1---11:40
MIKE REILLY
-11+1-5215:45
MORGAN RIELLY
-11--7-23:10
NICHOLAS ROBERTSON
-11+1-1-09:16
ADAM RUZICKA
-11----10:12
DYLAN SAMBERG
-11-2-114:52
JAKE SANDERSON
-11+2-4-22:04
TRAVIS SANHEIM
-11+322-19:15
NICK SEELER
-11+1-2-20:59
IGOR SHARANGOVICH
-11+1---21:24
KIEFER SHERWOOD
-11+122814:42
JONAS SIEGENTHALER
-11+1--122:27
JACCOB SLAVIN
-11--2-21:16
COLE SMITH
-11+25-113:04
DANIEL SPRONG
-11-21110:16
SAM STEEL
-11--1-14:51
TIM STUTZLE
-11+1-3-23:22
JOHN TAVARES
-11+2---18:10
DEVON TOEWS
-11-2-5124:16
PHILIP TOMASINO
-11--1-13:58
TREVOR VAN RIEMSDYK
-11+1-1-18:31
MARC-EDOUARD VLASIC
-11-221-12:23
MACKENZIE WEEGAR
-11+2-5324:16
ALEXANDER WENNBERG
-11--2-18:03
ZACHARY WERENSKI
-11-1-4-26:09
TOM WILSON
-11-22419:55
JASON ZUCKER
-11----15:47
CALEN ADDISON
----3-1116:21
SEBASTIAN AHO
-------23:11
NILS AMAN
-------08:49
JOEY ANDERSON
-----3315:27
JOSH ANDERSON
----2-2-14.00
MICHAEL ANDERSON
---+1-1322.00
MASON APPLETON
-----1-16:32
NICOLAS AUBE-KUBEL
----1--613:05
MIKAEL BACKLUND
---+1-1-19:27
KEVIN BAHL
------217:25
JUSTIN BARRON
----1-1119.00
MORGAN BARRON
----1-1-12:13
JAKE BEAN
----1-1-16:41
ANTHONY BEAUVILLIER
-----2-15:18
JOHN BEECHER
------512:26
MATTHEW BENIERS
-----4-19:11
SIMON BENOIT
----2-618:07
ZACH BENSON
---+1-1-14:26
TYLER BERTUZZI
-------16:44
OLIVER BJORKSTRAND
-----3119:55
NICK BJUGSTAD
---+1-1220:18
MACKENZIE BLACKWOOD
-------33:40
NICK BLANKENBURG
---+1--217:00
MATTHEW BOLDY
-----4-16:22
WILLIAM BORGEN
------214:26
ERIK BRANNSTROM
-----2120:22
BOBBY BRINK
-----1-12:07
JONAS BRODIN
----1-2-24:14
JOSH BROWN
-----1115:20
BRENT BURNS
---+1---23:19
MICHAEL CARCONE
----1-3-12:13
BRANDON CARLO
-------18:59
JOHN CARLSON
----1-3127:37
LEO CARLSSON
-----2-19:39
SAM CARRICK
----22-12:28
COLE CAUFIELD
-----3-20.00
ERIK CERNAK
----1-2319:20
ROURKE CHARTIER
-----3105:30
JALEN CHATFIELD
----1-3113:22
YEGOR CHINAKHOV
-----4-16:27
ANDREW COGLIANO
-----1-08:40
IAN COLE
---+122-15:11
ROSS COLTON
----2---20:40
LOGAN COOLEY
----4---18:02
CHARLIE COYLE
---+1-3120:03
LOUIS CREVIER
-------17:22
EVGENY DADONOV
----1-2-12:30
PHILLIP DANAULT
---+221117.00
JUSTIN DANFORTH
----4-2517:26
CALVIN DE HAAN
-----1114:35
ALEX DEBRINCAT
----2--316:50
JAKE DEBRUSK
----1-2214:05
DYLAN DEMELO
---+3-2-24:39
TRAVIS DERMOTT
-----1-13:33
CASEY DESMITH
-------59:26
CONNOR DEWAR
-----2208:46
PHILLIP DI GIUSEPPE
---+1--110:12
JASON DICKINSON
----21115:26
BRENDEN DILLON
----12-220:30
RYAN DONATO
-----1-11:54
LUKAS DOSTAL
-------58:23
NIC DOWD
----1---15:12
JONATHAN DROUIN
----3-2-25:22
DILLON DUBE
----2--105:47
PIERRE-LUC DUBOIS
----23115.00
ANTHONY DUCLAIR
-------15:27
BRANDON DUHAIME
-----2208:43
MATT DUMBA
----1-1519:43
BRIAN DUMOULIN
---+121119:09
VINCE DUNN
----224123:07
CHRISTIAN DVORAK
----121-16.00
JORDAN EBERLE
-----2-19:01
JOEL EDMUNDSON
------114:58
ANDREAS ENGLUND
----5-113.00
MACKENZIE ENTWISTLE
-------10:25
JOEL ERIKSSON EK
-----5420:48
LUKE EVANGELISTA
----1-1-12:42
JAKE EVANS
----2-2113.00
RYKER EVANS
---+1-2217:50
MICHAEL EYSSIMONT
----1--114:02
DANTE FABBRO
----1-2-17:41
BROCK FABER
----1---26:00
RADEK FAKSA
---+123-13:47
JESPER FAST
-------15:05
MARTIN FEHERVARY
----1-1220:06
MARIO FERRARO
---+2-1126:06
CHRISTIAN FISCHER
----1-2-09:11
TYSON FOERSTER
---+1-1-14:57
MARCUS FOLIGNO
----1-2114:40
NICK FOLIGNO
-----1-19:53
ANTON FORSBERG
-------58:42
CAM FOWLER
-------27:44
TRENT FREDERIC
----2--312:55
MORGAN FROST
-----1-17:20
BRENDAN GALLAGHER
-----1-15.00
FREDERICK GAUDREAU
----121-13:48
JOHNNY GAUDREAU
----321-17:43
VLADISLAV GAVRIKOV
---+1--121.00
MORGAN GEEKIE
----2-3-14:28
ALEXANDER GEORGIEV
-------58:56
DENNIS GILBERT
----1---10:16
LUKE GLENDENING
-----2-11:11
ALEX GOLIGOSKI
----1---10:40
SHAYNE GOSTISBEHERE
----2-3-20:04
YANNI GOURDE
-----5-17:58
A.J. GREER
----2--107:03
NOAH GREGOR
-----2211:18
RIDLY GREIG
----2-115:08
BENOIT-OLIVIER GROULX
-----1313:50
PHILIPP GRUBAUER
-------57:57
CARL GRUNDSTROM
-----5114.00
MATTHEW GRZELCYK
----1-1-19:29
RADKO GUDAS
----22214:42
KAIDEN GUHLE
----3-3-20.00
DAVID GUSTAFSSON
----1-2113:03
FILIP GUSTAVSSON
-------57:27
COLE GUTTMAN
-----2114:39
JANI HAKANPAA
----2--120:26
TRAVIS HAMONIC
----2-2-15:26
NOAH HANIFIN
----2--24:42
THOMAS HARLEY
---+3-4122:31
CARTER HART
-------60:00
RYAN HARTMAN
-------12:42
GARNET HATHAWAY
---+1--111:31
ERIK HAULA
----121-15:59
VICTOR HEDMAN
----1-2-24:32
DANTON HEINEN
---+1--113:35
CONNOR HELLEBUYCK
-------60:00
ADAM HENRIQUE
-----1-15:51
MIKE HOFFMAN
------109:49
JUSTIN HOLL
----1---13:39
SIMON HOLMSTROM
----1---14:11
ALEXANDER HOLTZ
-----1112:07
FILIP HRONEK
---+1--126:54
JONATHAN HUBERDEAU
---+1-1217:46
JACK HUGHES
----1-4-19:02
LUKE HUGHES
-----1-20:16
QUINN HUGHES
-----1-27:57
VILLE HUSSO
-------60:37
ALEX IAFALLO
----1-2-10:01
CONNOR INGRAM
-------59:29
SETH JARVIS
----1-3417:26
TANNER JEANNOT
-----1515:46
BOONE JENNER
----4-5118:14
DAVID JIRICEK
----1-2-17:21
RYAN JOHANSEN
----1-1-12:23
JONAS JOHANSSON
-------58:25
MARCUS JOHANSSON
-----1115:42
ERIK JOHNSON
-----1-13:15
JACK JOHNSON
-----1-15:28
RYAN JOHNSON
---+1-2-14:02
ROSS JOHNSTON
-----1107:35
WYATT JOHNSTON
----1-2-15:39
HENRI JOKIHARJU
---+1-1217:46
MARTIN JONES
-------09:38
SETH JONES
-----2125:08
MATHIEU JOSEPH
----2-5115:59
TYSON JOST
---+1-1311:30
NOAH JUULSEN
---+1--512:31
KAAPO KAHKONEN
-------25:32
ARTHUR KALIYEV
-----1-12.00
PATRICK KANE
----1-3-16:33
KIRILL KAPRIZOV
----1-2-20:41
MILOS KELEMEN
-----1109:24
CLAYTON KELLER
----3-1-19:03
PARKER KELLY
------107:07
ALEXANDER KERFOOT
------119:39
MICHAEL KESSELRING
----3---06:36
ALEXANDER KILLORN
-----4-21:09
MATTHEW KNIES
----1--317:06
PYOTR KOCHETKOV
----2--57:54
KEVIN KORCHINSKI
-----2-18:16
JESPERI KOTKANIEMI
----1-2-12:57
JOHNATHAN KOVACEVIC
----1-2117.00
PEYTON KREBS
-----1114:04
DOMINIK KUBALIK
----1-2-15:17
NIKITA KUCHEROV
----1-6123:26
SEAN KURALY
-----1-13:48
ANDREI KUZMENKO
-------12:15
JACKSON LACOMBE
-----2114:41
ALEX LAFERRIERE
-----2313.00
SAM LAFFERTY
-----1616:08
MAXIME LAJOIE
-------10:28
HENDRIX LAPIERRE
-----1-14:04
ADAM LARSSON
----2-2225:12
JAKUB LAUKO
------310:55
JÉRÉMY LAUZON
----1-1322:19
CURTIS LAZAR
------210:45
BRETT LEASON
-----5-14:43
ANDERS LEE
---+4-6315:46
BRENDAN LEMIEUX
----21-07:37
DEVON LEVI
-------60:00
TREVOR LEWIS
-----3113.00
ESA LINDELL
----3-1120:20
CHARLIE LINDGREN
-------65:00
ELIAS LINDHOLM
-----2-20:05
GUSTAV LINDSTROM
-----1-17.00
BLAKE LIZOTTE
-----4-13.00
MASON LOHREI
----1---16:53
NILS LUNDKVIST
---+1-1115:01
TRISTAN LUNEAU
----41-22:39
OLLE LYCKSELL
----2--06:11
ILYA LYUBUSHKIN
-------16:37
KURTIS MACDERMID
-------02:42
JACOB MACDONALD
----1-1-09:48
ZACK MACEWEN
------104:34
CALE MAKAR
----2-4-24:10
BECK MALENSTYN
----1---14:46
ANDREW MANGIAPANE
-----1118:00
JOSH MANSON
---+1-1117:42
KIRILL MARCHENKO
----21-16:52
PATRICK MAROON
----152213:41
SPENCER MARTIN
-------60:00
JORDAN MARTINOOK
-----3316:01
MICHAEL MATHESON
----1-2123.00
AUSTON MATTHEWS
-----1-20:13
CHARLIE MCAVOY
----1---15:53
JARED MCCANN
----1-4119:08
MICHAEL MCCARRON
----22114:40
BROCK MCGINN
------110:34
MICHAEL MCLEOD
---+1--112:34
TIMO MEIER
-----3-16:15
DAWSON MERCER
-----1-16:31
JON MERRILL
----12--12:01
JACOB MIDDLETON
----5-319:24
ILYA MIKHEYEV
-----1-16:53
COLIN MILLER
-----1-15:09
J.T. MILLER
---+1-4122:38
PAVEL MINTYUKOV
-----3-17:51
CASEY MITTELSTADT
-------21:29
SEAN MONAHAN
----1---16.00
SAMUEL MONTEMBEAULT
-------59.00
JANIS JÉRÔME MOSER
-----1-18:31
TYLER MOTTE
-----1-08:29
PETR MRAZEK
-------59:53
CONNOR MURPHY
-----1119:09
THOMAS NOVAK
----1---12:55
LIAM O'BRIEN
-----1509:37
LOGAN O'CONNOR
-----1-20:07
RYAN O'REILLY
-----3-16:30
NIKITA OKHOTYUK
---+2--415:56
KYLE OKPOSO
-----2113:57
JAMIE OLEKSIAK
-----1116:37
MATHIEU OLIVIER
-----2211:08
FREDRIK OLOFSSON
----21-09:00
JEAN-GABRIEL PAGEAU
------215:39
DAVID PASTRNAK
----1-9-20:04
NICK PAUL
----2-1-20:10
TANNER PEARSON
----2-1-16.00
ANDREW PEEKE
----1-2318:36
NICKLAUS PERBIX
-----3-15:36
COLE PERFETTI
-----3-12:39
DAVID PERRON
----1-1-15:16
BRETT PESCE
-----3-20:49
JEFF PETRY
---+3--120:28
ELIAS PETTERSSON
-----2117:49
MICHAEL PEZZETTA
----7279.00
NEAL PIONK
----1-3-22:10
BRAYDEN POINT
----2-2-20:45
MARTIN POSPISIL
-----2211:04
OWEN POWER
-----5128:27
IVAN PROVOROV
----3-1122:05
RYAN PULOCK
---+2-2-16:28
DARREN RADDYSH
-----1-14:44
TAYLOR RADDYSH
-----2-17:16
MIKKO RANTANEN
----3-1-27:17
RYAN REAVES
----1-1407:08
LUKAS REICHEL
-----1-11:31
RASMUS RISTOLAINEN
----1-1218:58
ERIC ROBINSON
---+1--113:33
ALEXANDER ROMANOV
-----3225:59
ISAK ROSEN
-------09:40
MARCO ROSSI
----1-1-16:44
MATT ROY
---+1---22.00
MATTIAS SAMUELSSON
---+1-2525:57
RASMUS SANDIN
-----1-23:02
JUUSE SAROS
-------60:00
MARK SCHEIFELE
---+2-2-17:54
LUKE SCHENN
---+1-3119:55
NICK SCHMALTZ
----2-2-19:55
AKIRA SCHMID
-------60:00
MORITZ SEIDER
----1-5-22:41
MIKHAIL SERGACHEV
----2-3123:41
KEVIN SHATTENKIRK
----1-1-22:01
DEVIN SHORE
----1---06:40
JAKOB SILFVERBERG
-----2-12:13
COLTON SISSONS
---+3-1216:15
JEFF SKINNER
-----5-19:04
BRADY SKJEI
-----1122:53
JURAJ SLAFKOVSKY
-----1-18.00
BRENDAN SMITH
---+12-108:34
CRAIG SMITH
-----3211:45
ILYA SOLOVYOV
------110:20
JORDAN SPENCE
---+1-3216.00
JARED SPURGEON
------123:56
JORDAN STAAL
----1-2415:51
STEVEN STAMKOS
----121-18:26
LOGAN STANLEY
----1--214:14
SPENCER STASTNEY
---+1---18:20
TROY STECHER
-----2-19:22
OSKAR STEEN
------308:59
MITCHELL STEPHENS
-----2-10.00
RYAN STROME
-----2114:44
JAYDEN STRUBLE
------116.00
RYAN SUTER
----1-1-19:58
NICK SUZUKI
-------20.00
CAMERON TALBOT
-------60.00
BRANDON TANEV
------212:02
CHRIS TANEV
-----2122:41
VLADIMIR TARASENKO
---+1-4118:37
TOMAS TATAR
-----3-13:47
TEUVO TERAVAINEN
-----1117:01
TROY TERRY
-----5-19:31
ALEXANDRE TEXIER
-----1-10:54
CONOR TIMMINS
----2--18:29
OWEN TIPPETT
-----3615:27
BRADY TKACHUK
----1-4318:46
TYLER TOFFOLI
----1-1-16:52
EELI TOLVANEN
-----2315:18
LINUS ULLMARK
-------56:34
JUUSO VALIMAKI
----2-2-20:18
JAMES VAN RIEMSDYK
----2-3-12:56
SEMYON VARLAMOV
-------59:31
FRANK VATRANO
-----4118:38
JOSEPH VELENO
----1---17:15
GABRIEL VILARDI
-----1112:39
ALEX VLASIC
----2--20:05
DMITRY VORONKOV
-----2213:52
SEAN WALKER
-----3121:20
JAKE WALMAN
----1-2-20:23
AUSTIN WATSON
----17-406:48
SCOTT WEDGEWOOD
-------65:00
DUSTIN WOLF
-------60:00
JOSEPH WOLL
-------50:22
MILES WOOD
---+1-4-13:57
KAILER YAMAMOTO
----121-09:06
JESSE YLONEN
----1---10.00
PAVEL ZACHA
----1-2217:55
FILIP ZADINA
----1-1-09:33
NIKITA ZADOROV
---+151317:24
NIKITA ZAITSEV
----2-113:43
YEGOR ZAMULA
-----2119:03
ARTEM ZUB
----1--122:19
MATS ZUCCARELLO
----1-2-19:41
STATS LNH 
EN DIRECT
2 MARS 2024
B P PTS
KYLE PALMIERI
3 1 4
CODY GLASS
3 - 3
ALEXIS LAFRENIÈRE
1 2 3
BRANDON MONTOUR
1 2 3
OWEN POWER
1 2 3
JEFF SKINNER
1 2 3
JOSH MORRISSEY
- 3 3
DYLAN COZENS
2 - 2
TYSON FOERSTER
2 - 2
NINO NIEDERREITER
2 - 2
VINCENT TROCHECK
2 - 2
SEBASTIAN AHO
1 1 2
RYAN DONATO
1 1 2
LEON DRAISAITL
1 1 2
TOREY KRUG
1 1 2
PHILIPP KURASHEV
1 1 2
ANDERS LEE
1 1 2
CASEY MITTELSTADT
1 1 2
THOMAS NOVAK
1 1 2
EVAN RODRIGUES
1 1 2
STATS COMPLÈTES  
SAISON
2023-2024
PJBPPTS
NIKITA KUCHEROV
+1
623866105
NATHAN MACKINNON
+1
623764101
CONNOR MCDAVID
+1
56227295
DAVID PASTRNAK
 62384987
ARTEMI PANARIN
+2
61354784
WILLIAM NYLANDER
+1
60335083
J.T. MILLER
 62305282
AUSTON MATTHEWS
+1
59532579
MIKKO RANTANEN
+1
62314678
LEON DRAISAITL
+2
58304475
ELIAS PETTERSSON
 62294675
MITCH MARNER
+1
59245074
SAM REINHART
+1
61423072
QUINN HUGHES
 62125870
ROBERT THOMAS
+1
60204869
MATTHEW TKACHUK
+1
60214769
BRAYDEN POINT
+1
63323365
CALE MAKAR
 57135164
SEBASTIAN AHO
+2
58243964
MATHEW BARZAL
+1
59184564
STATS COMPLÈTES  
CHRONIQUES 
MARQUEUR.COM - COPYRIGHT @2024 - TOUS DROITS RÉSERVÉS.
TERMES      POLITIQUE