RÉSULTATS LNH

       
POINTEURS
JOUEURSBPPTS+/-PUNLHITSTOI
KYLE CONNOR
123+1-3-16:41
BLAKE WHEELER
123+2-2116:20
MARK SCHEIFELE
-33+2-2218:14
SEBASTIAN AHO
2-2+1-4-18:00
JOEL FARABEE
2-2+1-4517:06
KASPERI KAPANEN
2-2+3-5214:20
CAM ATKINSON
112+1-5-16:59
PAVEL BUCHNEVICH
112+2-4-18:11
MATTIAS EKHOLM
112+1-6-22:52
BRENDAN GALLAGHER
112+1-3214:56
JEFF PETRY
112--2-21:38
BRYAN RUST
112+1-3-18:47
BROCK BOESER
-22-2-2-19:54
ADAM FOX
-22+1-1-23:47
JORDAN STAAL
-22--1219:38
ZACHARY WERENSKI
-22+2-1222:01
MASON APPLETON
1-1+1-2-15:28
CODY CECI
1-1+2-1217:19
CALLE JARNKROK
1-1--4116:20
BOONE JENNER
1-1+1-4-13:59
CHRIS KREIDER
1-1--2117:00
ALEXIS LAFRENIERE
1-1+1-1118:35
ANDERS LEE
1-1+1-2116:41
STEVEN LORENTZ
1-1--1207:21
ANTHONY MANTHA
1-1-1-3219:50
MICHAEL MATHESON
1-1-121118:09
J.T. MILLER
1-1-1-6-22:34
RILEY NASH
1-1+1-2-15:38
MATHIEU PERREAULT
1-1+1-4111:45
ELIAS PETTERSSON
1-1-1-2-17:31
SAM REINHART
1-1--2-19:46
TOBIAS RIEDER
1-1+1-2112:49
JACK ROSLOVIC
1-1--3-17:27
PAUL STASTNY
1-1+1-3-15:41
TYLER TOFFOLI
1-1+1-4219:26
VINCENT TROCHECK
1-1--2-17:36
OLIVER WAHLSTROM
1-1+1-1110:53
MILES WOOD
1-1--5-21:21
ARTEM ZUB
1-1+1-2115:21
MATHEW BARZAL
-11+1-1-18:24
DRAKE BATHERSON
-11--1318:23
EMIL BEMSTROM
-11+1-1214:04
OLIVER BJORKSTRAND
-11+1-5-17:47
NICK COUSINS
-11----16:26
SEAN COUTURIER
-11+1-7-17:51
RASMUS DAHLIN
-11---122:52
CHRISTIAN DJOOS
-11-22--16:52
JACK EICHEL
-11-22219:55
DANTE FABBRO
-11-43-22:16
MARK FRIEDMAN
-11+2--210:25
ANDY GREENE
-11--1-18:27
JAKE GUENTZEL
-11+1-2219:13
NIKITA GUSEV
-11--1115:47
DOUGIE HAMILTON
-11+2-2-24:07
ERIK HAULA
-11---117:00
QUINN HUGHES
-11-2-2-23:32
SETH JONES
-11+123120:27
JESPERI KOTKANIEMI
-11-1-3112:50
NICK LEDDY
-11+1-1-19:47
KRISTOPHER LETANG
-11+1-4123:16
RYAN LINDGREN
-11+15-119:14
ADAM LOWRY
-11+1-3116:18
EVGENI MALKIN
-11+123-20:05
JORDAN MARTINOOK
-11--2-10:29
JARED MCCANN
-11+3-2213:30
MARTIN NECAS
-11+1---16:50
VICTOR OLOFSSON
-11----17:36
JEAN-GABRIEL PAGEAU
-11+124-15:25
CEDRIC PAQUETTE
-11-2-307:50
COREY PERRY
-11---310:14
MIKE REILLY
-11+1--116:13
RASMUS RISTOLAINEN
-11--4424:01
BOBBY RYAN
-11-2-2-11:07
TRAVIS SANHEIM
-11+1-3-20:41
IGOR SHARANGOVICH
-11--4-18:12
JACCOB SLAVIN
-11+2-2122:31
NICK SUZUKI
-11+1-2118:41
TOMAS TATAR
-11--1214:41
JAMES VAN RIEMSDYK
-11+1-3115:40
MIKA ZIBANEJAD
-11+1---16:36
ANTHONY ANGELLO
------305:28
ARTEM ANISIMOV
-----2-11:41
JOEL ARMIA
----144413:51
VIKTOR ARVIDSSON
-----3115:53
ZACH ASTON-REESE
----22-317:17
JOSH BAILEY
----1---15:59
NATHAN BASTIAN
-----3308:53
JAY BEAGLE
-------09:26
JAKE BEAN
----1---13:22
NATHAN BEAULIEU
---+1-2116:42
ANTHONY BEAUVILLIER
----1--115:59
JORDIE BENN
---+121-15:18
MATT BENNING
----1-2-14:53
JONATHAN BERNIER
-------40:00
COLIN BLACKWELL
----1--115:41
TEDDY BLUEGER
----2--118:26
ERIK BRANNSTROM
----22-14:55
JESPER BRATT
----1-3112:13
JUSTIN BRAUN
---+1-2115:36
MATHIAS BROME
------112:12
LAURENT BROSSOIT
-------60:00
CONNOR BROWN
-----2-16:15
JACOB BRYSON
----1---18:39
CONNOR BUNNAMAN
-----1211:16
WILL BUTCHER
---+1-1-18:58
PAUL BYRON
------412:53
GABRIEL CARLSSON
------115:06
ALEXANDRE CARRIER
-----2116:11
THOMAS CHABOT
----1-2-26:35
BEN CHIAROT
-----3220:46
FILIP CHYTIL
-----1-16:08
CASEY CIZIKAS
-----1215:20
CAL CLUTTERBUCK
----21-14:42
ANDREW COPP
-----4418:43
DYLAN COZENS
---+15-210:55
JOSH CURRIE
-------07:24
JOEL DACCORD
-------59:18
EVGENY DADONOV
----1-3117:37
MICHAEL DAL COLLE
---+1-2109:07
PHILLIP DANAULT
-----2-18:02
DANNY DEKEYSER
------320:35
MICHAEL DEL ZOTTO
---+1-1-18:45
AARON DELL
-------55:59
DYLAN DEMELO
---+2--415:55
PHILLIP DI GIUSEPPE
------310:58
NOAH DOBSON
---+1---16:28
MAX DOMI
-----1-14:10
JONATHAN DROUIN
-----1-16:32
PIERRE-LUC DUBOIS
----122314:49
MATT DUCHENE
----1-2-18:19
CODY EAKIN
---+1---12:05
JORDAN EBERLE
---+1-1116:33
ALEXANDER EDLER
----1-1321:55
JOEL EDMUNDSON
-----2123:34
NIKOLAJ EHLERS
-----3-17:13
ADAM ERNE
------213:07
JAKE EVANS
----2-510:50
ROBBY FABBRI
----223-14:42
JESPER FAST
------313:38
HAYDN FLEURY
------215:35
WARREN FOEGELE
-----1-13:52
NICK FOLIGNO
-----3-17:51
DEREK FORBORT
-----2-21:46
FILIP FORSBERG
-----8119:21
SAM GAGNER
----2---16:19
ADAM GAUDETTE
----1-2-13:56
JULIEN GAUTHIER
-----2613:56
VLADISLAV GAVRIKOV
---+1--118:01
CLAUDE GIROUX
----221116:49
LUKE GLENDENING
-----1217:30
SHAYNE GOSTISBEHERE
----3-4-19:21
MIKAEL GRANLUND
-----1120:25
THOMAS GREISS
-------20:00
ROCCO GRIMALDI
-------13:19
ERIK GUDBRANSON
----4-316:38
ROBERT HAGG
---+1--614:35
LIBOR HAJEK
-----1-17:28
MICHEAL HALEY
------106:23
TAYLOR HALL
----2-1315:38
TRAVIS HAMONIC
----12-216:55
BEN HARPUR
----1---14:41
CARTER HART
-------59:57
KEVIN HAYES
----2-2217:18
DARREN HELM
-----2115:54
NILS HOGLANDER
----2-3-15:01
BRADEN HOLTBY
-------59:03
BO HORVAT
-----2219:21
BRETT HOWDEN
------110:26
FILIP HRONEK
----22123:30
JACK HUGHES
---+1-1-20:28
CARTER HUTTON
-------58:45
TRISTAN JARRY
-------60:00
TANNER JEANNOT
-------06:28
JACK JOHNSON
-----1117:50
ANDREAS JOHNSSON
-------17:46
HENRI JOKIHARJU
-----1318:08
ROMAN JOSI
----123-23:29
TRAVIS KONECNY
----1-2115:46
JOONAS KORPISALO
-------60:00
BRETT KULAK
-----1113:13
DMITRY KULIKOV
----222216:04
SAM LAFFERTY
----241315:56
PATRIK LAINE
-----1115:26
SCOTT LAUGHTON
----1-2514:06
CURTIS LAZAR
-----1215:27
ARTTURI LEHKONEN
----1-1313:39
BRENDAN LEMIEUX
------311:49
TREVOR LEWIS
-----2-09:12
OSKAR LINDBLOM
-----2-12:52
ZACK MACEWEN
------309:03
MIKHAIL MALTSEV
-----2107:32
JOHN MARINO
----1-2-25:01
MATT MARTIN
-----1-08:14
SCOTT MAYFIELD
------222:07
BROCK MCGINN
-----1117:37
MICHAEL MCLEOD
------211:13
JON MERRILL
----1-1218:47
COLIN MILLER
-----1317:12
K'ANDRE MILLER
------320:51
BRANDON MONTOUR
----122117:55
JOSH MORRISSEY
---+1-2223:51
PHILIPPE MYERS
-----1218:02
TYLER MYERS
----222-19:16
VLADISLAV NAMESTNIKOV
----1--118:10
BROCK NELSON
----1---16:25
PATRIK NEMETH
----122219:05
NINO NIEDERREITER
----43114:41
JOSH NORRIS
---+1-1-17:36
KYLE OKPOSO
----2-2112:28
MATHIEU OLIVIER
----2-309:23
KYLE PALMIERI
-----1219:08
NOLAN PATRICK
----2-4416:46
NICK PAUL
-----1-14:34
TANNER PEARSON
----1-2-13:00
ADAM PELECH
-----2-20:52
BRETT PESCE
----21-22:13
MARCUS PETTERSSON
---+1-2-23:26
NEAL PIONK
---+1-2220:03
TUCKER POOLMAN
---+121217:36
CAREY PRICE
-------59:54
IVAN PROVOROV
----4-2-23:02
RYAN PULOCK
----22120:37
MICHAEL RAFFL
----4-211:54
MICHAEL RASMUSSEN
-----1513:12
JAMES REIMER
-------60:00
PEKKA RINNE
-------39:31
ERIC ROBINSON
---+1--209:57
ALEXANDER ROMANOV
-----1415:35
KEVIN ROONEY
----21214:33
ANTOINE ROUSSEL
-----1-10:37
JUUSE SAROS
-------19:44
DAVID SAVARD
---+122321:02
COLTON SCEVIOUR
------106:08
NATE SCHMIDT
----1-2-20:32
DAMON SEVERSON
-----2-19:55
RILEY SHEAHAN
-------14:23
IGOR SHESTERKIN
-------59:54
COLTON SISSONS
-----1-10:35
JEFF SKINNER
-----3114:12
BRADY SKJEI
----1-4220:42
BRENDAN SMITH
-----2-17:07
TY SMITH
------119:49
ERIC STAAL
----2-3-13:14
MARC STAAL
----12-117:52
KEVIN STENLUND
---+1-3312:08
RYAN STROME
-----3-17:56
TIM STUTZLE
-----2119:19
P.K. SUBBAN
----1-3-23:17
BRANDON SUTTER
----2-3-15:54
ANDREI SVECHNIKOV
-----4-16:44
EVGENI SVECHNIKOV
----1---10:03
BRANDON TANEV
---+3-1717:01
ALEXANDRE TEXIER
---+1-1113:27
NATE THOMPSON
---+1--110:49
CHRIS TIERNEY
-------14:44
BRADY TKACHUK
----1-6320:38
EELI TOLVANEN
----1-3317:49
SEMYON VARLAMOV
-------60:00
SAMI VATANEN
-----1217:16
JAKE VIRTANEN
-----2112:47
JAKUB VORACEK
----1-2116:12
AUSTIN WATSON
------211:59
SHEA WEBER
-----3222:45
COLIN WHITE
----1---16:00
PAVEL ZACHA
----1---15:40
FILIP ZADINA
----1-3-12:41
NIKITA ZAITSEV
-----3-23:22
TRAVIS ZAJAC
----1--118:29
STATS LNH
HIER
16 AVRIL 2021 B P PTS
TYLER TOFFOLI
2 - 2
NICK BONINO
1 1 2
CHANDLER STEPHENSON
1 1 2
MARK STONE
- 2 2
NICK SUZUKI
- 2 2
TAYLOR HALL
1 - 1
TOMAS HERTL
1 - 1
EVANDER KANE
1 - 1
WILLIAM KARLSSON
1 - 1
CURTIS LAZAR
1 - 1
ELIAS LINDHOLM
1 - 1
BRAYDEN MCNABB
1 - 1
ZACH PARISE
1 - 1
DAVID PASTRNAK
1 - 1
NICOLAS ROY
1 - 1
MATS ZUCCARELLO
1 - 1
JOEL ARMIA
- 1 1
JONATHAN AUDY-MARCHESSAULT
- 1 1
PATRICE BERGERON
- 1 1
MATT DUMBA
- 1 1
  TOUS LES RÉSULTATS