RÉSULTATS

MEILLEURS POINTEURS
JOUEURSBPPTS+/-PUNLBLKHITSTAKEGIVEFWFLFO%SHFTOI
TYLER TOFFOLI
3-3+2-5--------14:10
BROCK BOESER
213-2-4-1------21:30
BO HORVAT
213--3-2------23:59
ALEX TUCH
123+124-1------19:16
J.T. MILLER
-33-1-2-2------19:59
SHEA THEODORE
2-2+1-4--------21:12
NICOLAS DESLAURIERS
112+2-3-1------10:01
JOEL ERIKSSON EK
112+1-5--------18:07
JESPERI KOTKANIEMI
112+222-2------13:20
ALEX PIETRANGELO
112--4--------23:03
MARK STONE
112+1-4--------20:32
QUINN HUGHES
-22-4-3--------27:03
CARTER ROWNEY
-22+2-2--------14:21
JOSH ARCHIBALD
1-1+1-2-6------15:01
NICK BONINO
1-1-2-5-1------20:36
LEON DRAISAITL
1-1+1-4-2------20:19
CAM FOWLER
1-1--1--------22:39
BRENDAN GALLAGHER
1-1+1-8--------14:43
RYAN HARTMAN
1-1+1-4--------10:56
PHIL KESSEL
1-1-1-4-1------16:05
AUSTON MATTHEWS
1-1--6-6------24:14
TYLER MOTTE
1-1+1-3-9------16:16
BRAYDEN SCHENN
1-1+1-2-1------18:06
NICK SCHMALTZ
1-1--3--------13:25
MARCUS SORENSEN
1-1+1-2--------08:57
KAILER YAMAMOTO
1-1+1---2------16:02
JOEL ARMIA
-11+2-2-2------11:46
JONATHAN AUDY-MARCHESSAULT
-11-23--------13:20
T.J. BRODIE
-11+1-1--------21:40
DRAKE CAGGIULA
-11+143-1------11:47
JAKOB CHYCHRUN
-11+1-2-1------21:18
PHILLIP DANAULT
-11+1---3------17:01
VINCE DUNN
-11--2--------19:16
CHRISTIAN DVORAK
-11-1---1------17:19
MARIO FERRARO
-11+1-2--------22:52
DEREK GRANT
-11+1----------15:38
JORDAN GREENWAY
-11+2----------13:54
NICOLAS HAGUE
-11+1-2-4------15:27
ZACH HYMAN
-11----3------20:36
KIRILL KAPRIZOV
-11+1---3------16:52
KEEGAN KOLESAR
-11+1-1-5------08:18
JORDAN KYROU
-11+1-1--------15:06
ALEC MARTINEZ
-11+1----------20:28
CONNOR MCDAVID
-11-24--------22:38
TYLER MYERS
-11--1-2------21:41
MATTHEW NIETO
-11+1-2--------10:35
RYAN NUGENT-HOPKINS
-11-1-2--------20:36
DARNELL NURSE
-11-2--2------21:29
MAX PACIORETTY
-11+1-3-1------17:45
JEFF PETRY
-11+1-2-2------23:11
JESSE PULJUJARVI
-11----2------09:02
REILLY SMITH
-11----1------16:27
NICK SUZUKI
-11-1-4-2------18:21
TOMAS TATAR
-11-21-1------14:33
SHEA WEBER
-11-1-2-3------25:28
FREDERIK ANDERSEN
--------------58:44
JOSH ANDERSON
----141-4------16:53
IVAN BARBASHEV
--------------09:43
TYSON BARRIE
-----1-1------19:08
JAY BEAGLE
---+1-3-1------13:55
ETHAN BEAR
-----1-1------19:21
JORDAN BINNINGTON
--------------65:00
NICK BJUGSTAD
-----2-1------10:20
SAMUEL BLAIS
-----1--------08:30
ZACH BOGOSIAN
--------------10:50
TYLER BOZAK
-----1--------12:49
DERICK BRASSARD
----1---3------14:41
JONAS BRODIN
-----3-2------24:21
BRENT BURNS
----23-1------30:51
PAUL BYRON
-------1------14:06
KYLE CAPOBIANCO
----121--------14:32
WILLIAM CARRIER
-----1-2------10:40
JALEN CHATFIELD
----1-1-2------15:30
BEN CHIAROT
----21-5------25:23
ALEX CHIASSON
-----2--------14:08
IAN COLE
---+1---3------17:31
MAXIME COMTOIS
----1-3-3------15:05
LOGAN COUTURE
----1-4--------24:18
LAWSON CROUSE
----1-2-1------16:12
JASON DEMERS
----22--2------18:38
TRAVIS DERMOTT
-----1-1------08:55
RYAN DONATO
----1-2--------15:24
JONATHAN DROUIN
-------2------16:05
MATT DUMBA
----123-1------17:56
ALEXANDER EDLER
-----1-1------06:58
JOEL EDMUNDSON
---+1-1-3------19:47
JAKE EVANS
-----1-2------14:50
JUSTIN FAULK
-----3-4------26:30
KEVIN FIALA
----2-1-1------18:52
CHRISTIAN FISCHER
-------5------12:07
MARC-ANDRE FLEURY
--------------59:55
MARCUS FOLIGNO
----2--1------12:12
DYLAN GAMBRELL
-------2------13:53
CONOR GARLAND
----22--------15:07
ADAM GAUDETTE
----1-2-1------11:54
RYAN GETZLAF
----23-1------19:57
ALEX GOLIGOSKI
---+1---2------23:17
CARL GUNNARSSON
----2--1------13:42
JANI HAKANPAA
---+1-2-2------19:10
TRAVIS HAMONIC
----1---3------15:55
JOHN HAYDEN
-------3------09:43
DANTON HEINEN
-----2--------11:29
ADAM HENRIQUE
----1---2------13:31
TOMAS HERTL
-----2--------23:02
NIKLAS HJALMARSSON
----121-1------17:34
MIKE HOFFMAN
-----2--------13:06
NILS HOGLANDER
--------------14:07
JUSTIN HOLL
----1-2-2------19:30
BRADEN HOLTBY
--------------65:00
MARCUS JOHANSSON
----1----------15:28
MARTIN JONES
--------------64:47
KAAPO KAHKONEN
--------------60:00
DOMINIK KAHUN
---+1---2------12:53
EVANDER KANE
----83-1------22:13
ERIK KARLSSON
-----1--------30:43
WILLIAM KARLSSON
----1-1--------18:50
ZACK KASSIAN
----1---2------14:44
CLAYTON KELLER
----1-2--------16:11
ALEXANDER KERFOOT
----122-2------13:40
NIKOLAI KNYZHOV
-----1--------07:12
SLATER KOEKKOEK
---+1-2-1------19:40
MIKKO KOSKINEN
--------------60:00
TOREY KRUG
----22--------21:48
DARCY KUEMPER
--------------60:00
BRETT KULAK
---+121-2------15:05
KEVIN LABANC
----1-6--------17:46
ADAM LARSSON
---+1-1-1------19:50
JACOB LARSSON
----1-1-1------12:15
JOHAN LARSSON
-----1-1------16:10
ARTTURI LEHKONEN
-----1--------14:57
MIKKO LEHTONEN
--------------08:34
JOHN LEONARD
-----1--------11:51
HAMPUS LINDHOLM
---+1-2-1------25:07
PATRICK MARLEAU
---+1-1-3------10:00
MITCH MARNER
----21--------26:16
BRAYDEN MCNABB
----2--1------15:58
TIMO MEIER
-----7-1------15:14
ILYA MIKHEYEV
-----4--------13:34
NIKO MIKKOLA
-----1--------14:25
SONNY MILANO
-----2-2------15:55
RYAN MILLER
--------------57:54
JAKE MUZZIN
----121-1------19:05
STEFAN NOESEN
-----1-1------09:56
TOMAS NOSEK
----21-1------12:20
JOAKIM NYGARD
-----1--------09:04
WILLIAM NYLANDER
----2-2-1------17:57
RYAN O'REILLY
----1-1--------23:14
JORDAN OESTERLE
----2-2--------17:57
COLTON PARAYKO
----42-2------26:01
ZACH PARISE
----1-3--------18:19
TANNER PEARSON
----1---1------19:49
DAVID PERRON
----121-1------18:01
ELIAS PETTERSSON
----2-2--------20:58
TYLER PITLICK
----12--1------14:14
CAREY PRICE
--------------65:00
RICKARD RAKELL
----1-1-3------18:26
VICTOR RASK
-------1------11:48
RYAN REAVES
-------3------11:22
MORGAN RIELLY
-----3-1------24:49
ALEXANDER ROMANOV
---+2-4-4------16:19
ANTOINE ROUSSEL
----12--2------08:54
NICOLAS ROY
---+1---2------15:47
KRIS RUSSELL
-----1--------15:21
ZACHARY SANFORD
----1-1--------16:20
NATE SCHMIDT
---+2-1-4------27:42
JADEN SCHWARTZ
---+1-2--------18:47
KEVIN SHATTENKIRK
----6--1------24:00
DEVIN SHORE
---+1-1-3------12:28
JAKOB SILFVERBERG
----1---2------13:14
RADIM SIMEK
----1---2------10:09
WAYNE SIMMONDS
-------1------09:19
CARSON SOUCY
---+1-1-2------16:56
JASON SPEZZA
-----1--------11:07
JARED SPURGEON
----1-1-3------23:54
SAM STEEL
----1---2------15:23
CHANDLER STEPHENSON
---+1----------13:33
NICO STURM
-----3--------10:18
OSKAR SUNDQVIST
----21-4------14:40
RYAN SUTER
-----1-1------18:19
BRANDON SUTTER
---+1---1------14:49
JOHN TAVARES
----1-1-1------18:18
TROY TERRY
----1-1--------15:16
ROBERT THOMAS
--------------11:49
JOE THORNTON
-----1--------13:12
KYLE TURRIS
--------------14:16
JIMMY VESEY
----1---1------12:38
JAKE VIRTANEN
----1-2-2------14:59
MARC-EDOUARD VLASIC
-------1------22:12
ANDREW WELINSKI
-----1--------13:23
ZACH WHITECLOUD
---+1-1-2------17:54
STATS LNH
EN DIRECT
POINTS
1 MARS 2021
BPPTS
MARTIN NECAS
123
DRAKE BATHERSON
2-2
ELIAS PETTERSSON
112
MORGAN RIELLY
112
NATE SCHMIDT
112
ADAM GAUDETTE
-22
TIM STUTZLE
-22
ARTEM ANISIMOV
1-1
EVGENY DADONOV
1-1
NILS HOGLANDER
1-1
  TOUS LES RÉSULTATS
STATS LNH
SAISON    2021
POINTS
2020-2021
PTS
LIVE
PJPTS
CONNOR MCDAVID
02440
LEON DRAISAITL
02434
PATRICK KANE
-2334
MITCH MARNER
+12333
AUSTON MATTHEWS
-2031
MARK SCHEIFELE
02128
JAMES VAN RIEMSDYK
-1825
ALEX DEBRINCAT
-1925
NICKLAS BACKSTROM
-2125
JONATHAN HUBERDEAU
02124
  STATS COMPLÈTES
BUTS
2020-2021
BUTS
LIVE
PJB
AUSTON MATTHEWS
-2018
CONNOR MCDAVID
02414
TYLER TOFFOLI
-2012
BROCK BOESER
02512
LOGAN COUTURE
01911
STATS COMPLÈTES  
PASSES
2020-2021
PASSES
LIVE
PJP
CONNOR MCDAVID
02426
LEON DRAISAITL
02424
MITCH MARNER
+12323
PATRICK KANE
-2323
ANZE KOPITAR
-2019
STATS COMPLÈTES  
photo
PLUS VISITÉS DEPUIS 24 HEURES
  
ALEX DEBRINCAT
  
CONOR GARLAND
  
JOEL FARABEE
  
DRAKE BATHERSON
  
CAREY PRICE
  
AUSTON MATTHEWS
  
NEAL PIONK
  
KEVIN LANKINEN
  
KIRILL KAPRIZOV
  
PATRICK KANE
QUIZ SUR MARQUEUR
500$ À GAGNER
image
Qui a peint ce tableau, intitulé ''La Ronde de Nuit''?
LEONARD DE VINCI
MICHEL-ANGE
PIERRE PAUL RUBENS
REMBRANDT